Salut à tous, Je cherche désespérément la tablature de Tu Y crois en concert ( avec son acoustique) et donc avec les instruments qui s'ajoutent petit à petit. Je pense avoir trouvé les deux premiers airs qui seraient : ---------0----------- -----0-0-0----------- -----0-0-0----------- -8-8-8-8-8-8-8--8---- -9-9-9-9-8-8-9--8---- ---------------10---- Le nombre de fois que je fais répeter l'accord n'est pas significatif, je veux juste voir si c'est ca ( mon oreille est pas toujours bonne :D) et si vous connaissez la suite et notamment la partie electrique ?
alex59150 Il y a 11 ans

Salut à tous,
Je cherche désespérément la tablature de Tu Y crois en concert ( avec son acoustique) et donc avec les instruments qui s'ajoutent petit à petit.
Je pense avoir trouvé les deux premiers airs qui seraient :
---------0-----------
-----0-0-0-----------
-----0-0-0-----------
-8-8-8-8-8-8-8--8----
-9-9-9-9-8-8-9--8----
---------------10----

Le nombre de fois que je fais répeter l'accord n'est pas significatif, je veux juste voir si c'est ca ( mon oreille est pas toujours bonne ) et si vous connaissez la suite et notamment la partie electrique ?

Salut, pour moi, apres un peu de recherche, ca ressemble a ca, ca sonne bien retranscrit sur gp6 [code] E |----------------------------|----------------------------| B |----------------------------|----------------------------| G |--0--------0--------0--0----|--0--------0-----0--0--0----| D |--9--------9--------9--0----|--9--------9-----9--9--9----| A |--10-------10-------10-0----|--10-------10----10-10-10---| E |--0--------0--------0--0----|--0--------0-----0--0--0----| ----------------------------|----------------------------| ----------------------------|----------------------------| --0--------0--------0--0----|--0--------0-----0--0--0----| --9--------9--------9--0----|--9--------9-----9--9--9----| --10-------10-------10-0----|--10-------10----10-10-10---| --0--------0--------0--0----|--0--------0-----0--0--0----| ----------------------------------------------------| ----------------------------------------------------| --0-----------------0-----------0-----0-----0--0----| --0-----------------0-----------0-----0-----0--0----| --9-----------------9-----------9-----10----10-10---| --10----------------10----------10----10----10-10---| ----------------------------|----------------------------| ----------------------------|----------------------------| --0--------0-----0--0--0----|--0--------0--------0--0----| --0--------0-----0--0--0----|--9--------9--------9--0----| --9--------9-----10-9--0----|--10-------10-------10-0----| --10-------10----10-10-0----|--0--------0--------0--0----| ----------------------------|----------------------------| ----------------------------|----------------------------| --0--------0-----0--0--0----|--0--------0--------0--0----| --9--------9-----9--9--9----|--9--------9--------9--0----| --10-------10----10-10-10---|--10-------10-------10-0----| --0--------0-----0--0--0----|--0--------0--------0--0----| ----------------------------| ----------------------------| --0--------0-----0--0--0----| --9--------9-----9--9--9----| --10-------10----10-10-10---| --0--------0-----0--0--0----| ----------------------------------------------------| ----------------------------------------------------| --0-----------------0-----------0-----0-----0--0----| --0-----------------0-----------0-----0-----0--0----| --9-----------------9-----------9-----10----10-10---| --10----------------10----------10----10----10-10---| ----------------------------|| ----------------------------|| --0--------0-----0--0--0----|| --0--------0-----0--0--0----|| --9--------9-----10-9--0----|| --10-------10----10-10-0----|| [/code]
darthdu69 Il y a 10 ans

Salut,
pour moi, apres un peu de recherche, ca ressemble a ca, ca sonne bien retranscrit sur gp6


E |----------------------------|----------------------------|
B |----------------------------|----------------------------|
G |--0--------0--------0--0----|--0--------0-----0--0--0----|
D |--9--------9--------9--0----|--9--------9-----9--9--9----|
A |--10-------10-------10-0----|--10-------10----10-10-10---|
E |--0--------0--------0--0----|--0--------0-----0--0--0----|


----------------------------|----------------------------|
----------------------------|----------------------------|
--0--------0--------0--0----|--0--------0-----0--0--0----|
--9--------9--------9--0----|--9--------9-----9--9--9----|
--10-------10-------10-0----|--10-------10----10-10-10---|
--0--------0--------0--0----|--0--------0-----0--0--0----|


----------------------------------------------------|
----------------------------------------------------|
--0-----------------0-----------0-----0-----0--0----|
--0-----------------0-----------0-----0-----0--0----|
--9-----------------9-----------9-----10----10-10---|
--10----------------10----------10----10----10-10---|


----------------------------|----------------------------|
----------------------------|----------------------------|
--0--------0-----0--0--0----|--0--------0--------0--0----|
--0--------0-----0--0--0----|--9--------9--------9--0----|
--9--------9-----10-9--0----|--10-------10-------10-0----|
--10-------10----10-10-0----|--0--------0--------0--0----|


----------------------------|----------------------------|
----------------------------|----------------------------|
--0--------0-----0--0--0----|--0--------0--------0--0----|
--9--------9-----9--9--9----|--9--------9--------9--0----|
--10-------10----10-10-10---|--10-------10-------10-0----|
--0--------0-----0--0--0----|--0--------0--------0--0----|


----------------------------|
----------------------------|
--0--------0-----0--0--0----|
--9--------9-----9--9--9----|
--10-------10----10-10-10---|
--0--------0-----0--0--0----|


----------------------------------------------------|
----------------------------------------------------|
--0-----------------0-----------0-----0-----0--0----|
--0-----------------0-----------0-----0-----0--0----|
--9-----------------9-----------9-----10----10-10---|
--10----------------10----------10----10----10-10---|


----------------------------||
----------------------------||
--0--------0-----0--0--0----||
--0--------0-----0--0--0----||
--9--------9-----10-9--0----||
--10-------10----10-10-0----||

plop, Essai moi ca ;) 0 0 0 9 10 0 à la place de tes cordes à vide pour le petit effet tu fais, 0 0 0 9 9 0 puis 0 0 0 0 9 10 pour le petit effet tu fais : 0 0 0 0 10 10 voila ça en boucle. Après t'as une variante sur le premier faut faire: 0 0 0 9 9 0 et la tu fais: 0 0 0 9 12 0 et la tu reprends normal sur le deuxième. 0 0 0 0 9 10 0 0 0 0 10 10 Pis après pour les accords au cas ou tu les aurais pas c'est : Em,C avec variante(avec ton petit doigts en cas 3 au lieu de 1 pour faire ton C)puis G j'espère que ça t'aidera et que ça t’ira ;) pour moi c'est bon. PS: désolé pour la présentation j'avais la flemme ;)
petitprince Il y a 10 ans

plop,


Essai moi ca

0
0
0
9
10
0

à la place de tes cordes à vide pour le petit effet tu fais,


0
0
0
9
9
0

puis

0
0
0
0
9
10

pour le petit effet tu fais :


0
0
0
0
10
10

voila ça en boucle. Après t'as une variante sur le premier faut faire:


0
0
0
9
9
0

et la tu fais:


0
0
0
9
12
0

et la tu reprends normal sur le deuxième.


0
0
0
0
9
10



0
0
0
0
10
10

Pis après pour les accords au cas ou tu les aurais pas c'est :

Em,C avec variante(avec ton petit doigts en cas 3 au lieu de 1 pour faire ton C)puis G

j'espère que ça t'aidera et que ça t’ira pour moi c'est bon.

PS: désolé pour la présentation j'avais la flemme