Pour les gratteux, voila la tab de "Les Infidèles" : Jouer ces accords plusieurs fois chacuns (le tout 3x) B5 : 799XXX C5 : 577XXX B5 : 799XXX Puis : G5 : 355XXX D5 : 10 12 12 X X X Pour revenir à la boucle principale, il joue parfois (une fois par accord) : 10 12 12 X X X / 9 11 11 X X X / 7 9 9 X X X
[Saezien]Quentin Il y a 9 ans

Pour les gratteux, voila la tab de "Les Infidèles" :
Jouer ces accords plusieurs fois chacuns (le tout 3x)
B5 : 799XXX
C5 : 577XXX
B5 : 799XXX

Puis :
G5 : 355XXX
D5 : 10 12 12 X X X

Pour revenir à la boucle principale, il joue parfois (une fois par accord) :

10 12 12 X X X / 9 11 11 X X X / 7 9 9 X X X





on peut l'avoir ou cette chanson? j'ai du louper des épisodes...
broisou Il y a 9 ans

on peut l'avoir ou cette chanson?
j'ai du louper des épisodes...

@broisou : j'ai loupé également des épisodes, apparemment certains auraient déjà l'album, samedi je vais aller prospecter dans les magasins pour voir si ils l'ont sortie avant ^^ on ne sait jamais !! :D Merci Quentin, même si pour l'instant ça ne va pas servir encore à grand monde, sachant qu'on ne connait pas l'air de la chanson, ahhh tu nous mets l'eau à la bouche, hâte !! =)
gwen Il y a 9 ans

broisou : j'ai loupé également des épisodes, apparemment certains auraient déjà l'album, samedi je vais aller prospecter dans les magasins pour voir si ils l'ont sortie avant on ne sait jamais !!

Merci Quentin, même si pour l'instant ça ne va pas servir encore à grand monde, sachant qu'on ne connait pas l'air de la chanson, ahhh tu nous mets l'eau à la bouche, hâte !! =)

Tiens tiens, @Peb' est pas encore venu démonter ta tablature..... :p
Killian Il y a 9 ans

Tiens tiens, @Peb' est pas encore venu démonter ta tablature.....

En même temps, pour ne pas trouver des accords de force, il faut être un peu débile, je n'le crois pas aussi bête à ce point là le @Quentin !
AnonymeIl y a 9 ans

En même temps, pour ne pas trouver des accords de force, il faut être un peu débile, je n'le crois pas aussi bête à ce point là le Quentin !

Moi j'suis preneur de "que sont-elles devenues" !
FloRian Il y a 9 ans

Moi j'suis preneur de "que sont-elles devenues" !

Recherche rapide pour : - No More : Am G Em F - Le Roi : Em G D Am Bon il doit y avoir de meilleurs accords, mais ça a l'air de fonctionner...
Patapizza Il y a 9 ans

Recherche rapide pour :

- No More : Am G Em F
- Le Roi : Em G D Am

Bon il doit y avoir de meilleurs accords, mais ça a l'air de fonctionner...

Pour ceux qui veulent les TABS de "Que sont elles devenues" et "Rottweiller" voici ce que j'ai trouvé : Que Sont-elles Devenues ? SAEZ Miami (2013) ACCORDS : Em / C Arpège : Em |--------------------------------------------------------| |----------------------------0------------0-------------| |--------------0------------------------------2--0------| |----2--0--2-----2--0--2-----2--0--2-----------------| |--------------------------------------------------------| |-0------------------------------------------------------| C |--------------------------------------------------------| |--------------------------------------------------------| |------------0-------------------0----------------------| |-----0--2------2--0----0--2------2--0---------------| |-3-----------------------------------------------------| |--------------------------------------------------------| Puis deux guitares arrivent : Guitare 2 : Jammer sur : Em/Cordes à vides Guitare 3 : Em C |------------------------------------------------------------------------------------------------------| |------------------------------------------------------------------------------------------------------| |------------------------------------------------------------------------------------------------------| |----2-----2-----2------0--2-----------2-----2-----2------0--2-------2------2------2------0--2-| |----------------------------------------------------------------------3-----3------3------3---------| |-0-----0-----0-----0---------------0-----0-----0-----0--------------------------------------------| Puis la guitare 3 reprend l’arpège de base (en accentuant sur les aigues de temps à autres) Puis : Em |--------------------------------------| |--------------------------------------| |-----9------9------9-----7B9------| |-9------9------9-----9--------------| |--------------------------------------| |--------------------------------------| Rottweiller SAEZ Miami (2013) ACCORDS : B / G Guitare 1 : Arpège : B G |-------------------------------------------------------| |-------------------------------------------------------| |-4--4--4--4--4---------------------------------------| |-4--4--4--4--4---5--5--5---------------------------| |-2--2--2--2--2---5--5--5---------------------------| |--------------------3--3--3---------------------------| Guitare 2 : B G |-------------------------------------------------------------------| |-----3------3------3-----3------3------3------3------3---------| |-4------4------4------4-----4-------0-----0------0-------------| |-------------------------------------------------------------------| |-------------------------------------------------------------------| |-------------------------------------------------------------------| Guitare 1 Vers la fin de la chanson : B G |-------------------------------------------------------| |-------------------------------------------------------| |-4--4--4--4--4---------------------------------------| |-4--4--4--4--4---6--5--5---------------------------| |-2--2--2--2--2---6--5--5---------------------------| |--------------------4--3--3---------------------------|
[Saezien]Quentin Il y a 9 ans

Pour ceux qui veulent les TABS de "Que sont elles devenues" et "Rottweiller" voici ce que j'ai trouvé :
Que Sont-elles Devenues ?
SAEZ
Miami (2013)

ACCORDS : Em / C

Arpège :
Em
|--------------------------------------------------------|
|----------------------------0------------0-------------|
|--------------0------------------------------2--0------|
|----2--0--2-----2--0--2-----2--0--2-----------------|
|--------------------------------------------------------|
|-0------------------------------------------------------|

C
|--------------------------------------------------------|
|--------------------------------------------------------|
|------------0-------------------0----------------------|
|-----0--2------2--0----0--2------2--0---------------|
|-3-----------------------------------------------------|
|--------------------------------------------------------|

Puis deux guitares arrivent :

Guitare 2 : Jammer sur : Em/Cordes à vides

Guitare 3 :

Em C
|------------------------------------------------------------------------------------------------------|
|------------------------------------------------------------------------------------------------------|
|------------------------------------------------------------------------------------------------------|
|----2-----2-----2------0--2-----------2-----2-----2------0--2-------2------2------2------0--2-|
|----------------------------------------------------------------------3-----3------3------3---------|
|-0-----0-----0-----0---------------0-----0-----0-----0--------------------------------------------|

Puis la guitare 3 reprend l’arpège de base (en accentuant sur les aigues de temps à autres)

Puis :

Em
|--------------------------------------|
|--------------------------------------|
|-----9------9------9-----7B9------|
|-9------9------9-----9--------------|
|--------------------------------------|
|--------------------------------------|



Rottweiller
SAEZ
Miami (2013)

ACCORDS : B / G

Guitare 1 :
Arpège :
B G
|-------------------------------------------------------|
|-------------------------------------------------------|
|-4--4--4--4--4---------------------------------------|
|-4--4--4--4--4---5--5--5---------------------------|
|-2--2--2--2--2---5--5--5---------------------------|
|--------------------3--3--3---------------------------|

Guitare 2 :
B G
|-------------------------------------------------------------------|
|-----3------3------3-----3------3------3------3------3---------|
|-4------4------4------4-----4-------0-----0------0-------------|
|-------------------------------------------------------------------|
|-------------------------------------------------------------------|
|-------------------------------------------------------------------|



Guitare 1 Vers la fin de la chanson :
B G
|-------------------------------------------------------|
|-------------------------------------------------------|
|-4--4--4--4--4---------------------------------------|
|-4--4--4--4--4---6--5--5---------------------------|
|-2--2--2--2--2---6--5--5---------------------------|
|--------------------4--3--3---------------------------|

Cool :) Merci!
tortillo Il y a 9 ans

Cool Merci!

Pour Y Voir SAEZ Miami (2013) ACCORDS : Em / D Guitare 1 : |-------------------------------------------------------------------| |-------------------------------------------------------------------| |-------------------------------------------------------------------| |-----2------3------2-(0)-----------------------------------------| |-------------------------------------------------------------------| |-0------0------0--------------------------------------------------| Riffs Guitare 2 : (en fond vers le milieu de la chanson) |--------------------------/ /-----------------------------------------| |--------------------------/ /-----------------------------------------| |--------------------------/ /-----------------------------------------| |-12--9-------------------/ /-----------------------------------------| |----------12--10---------/ /-7-7--7--5--7-------------------------| |--------------------12----/ /-----------------------------------------| Puis : Riff 1 |-------------------------------------------------------------------| |-------------------------------------------------------------------| |-------------7---------------9------------------------------------| |-2--2-2-2--7---------------9------------------------------------| |-2--2-2-2--5---2--2-2-2--7------------------------------------| |-0--0-0-0-------0--0-0-0---------------------------------------| Riff 2 |-------------------------------------------------------------------| |-------------------------------------------------------------------| |-------------7---------------7------------------------------------| |-2--2-2-2--7---------------7------------------------------------| |-2--2-2-2--5---2--2-2-2--5------------------------------------| |-0--0-0-0-------0--0-0-0---------------------------------------| Riff 3 |----------------------------------------------------------| |----------------------------------------------------------| |-------------7-9-7---------------------------------------| |-2--2-2-2--7-9-7---------------------------------------| |-2--2-2-2--5-7-5---------------------------------------| |-0--0-0-0------------------------------------------------| Riff 4 |----------------------------------------------------------| |----------------------------------------------------------| |-------------7-6-7---------------------------------------| |-2--2-2-2--7-6-7---------------------------------------| |-2--2-2-2--5-4-5---------------------------------------| |-0--0-0-0------------------------------------------------|
[Saezien]Quentin Il y a 9 ans

Pour Y Voir
SAEZ
Miami (2013)

ACCORDS : Em / D

Guitare 1 :
|-------------------------------------------------------------------|
|-------------------------------------------------------------------|
|-------------------------------------------------------------------|
|-----2------3------2-(0)-----------------------------------------|
|-------------------------------------------------------------------|
|-0------0------0--------------------------------------------------|


Riffs Guitare 2 : (en fond vers le milieu de la chanson)

|--------------------------/ /-----------------------------------------|
|--------------------------/ /-----------------------------------------|
|--------------------------/ /-----------------------------------------|
|-12--9-------------------/ /-----------------------------------------|
|----------12--10---------/ /-7-7--7--5--7-------------------------|
|--------------------12----/ /-----------------------------------------|

Puis :
Riff 1
|-------------------------------------------------------------------|
|-------------------------------------------------------------------|
|-------------7---------------9------------------------------------|
|-2--2-2-2--7---------------9------------------------------------|
|-2--2-2-2--5---2--2-2-2--7------------------------------------|
|-0--0-0-0-------0--0-0-0---------------------------------------|
Riff 2
|-------------------------------------------------------------------|
|-------------------------------------------------------------------|
|-------------7---------------7------------------------------------|
|-2--2-2-2--7---------------7------------------------------------|
|-2--2-2-2--5---2--2-2-2--5------------------------------------|
|-0--0-0-0-------0--0-0-0---------------------------------------|
Riff 3
|----------------------------------------------------------|
|----------------------------------------------------------|
|-------------7-9-7---------------------------------------|
|-2--2-2-2--7-9-7---------------------------------------|
|-2--2-2-2--5-7-5---------------------------------------|
|-0--0-0-0------------------------------------------------|



Riff 4
|----------------------------------------------------------|
|----------------------------------------------------------|
|-------------7-6-7---------------------------------------|
|-2--2-2-2--7-6-7---------------------------------------|
|-2--2-2-2--5-4-5---------------------------------------|
|-0--0-0-0------------------------------------------------|



De rien !

PS : @Peb' Woua quel compliment !
[Saezien]Quentin Il y a 9 ans

PS : @Peb' Woua quel compliment !

Miami SAEZ Miami (2013) ACCORDS : B / A / G B : x244xx A : 577xxx G : 355xxx
[Saezien]Quentin Il y a 9 ans

Miami
SAEZ
Miami (2013)

ACCORDS : B / A / G

B : x244xx
A : 577xxx
G : 355xxx

Rochechouart SAEZ Miami (2013) ACCORDS : B / G Guitare 1 : Arpège : B G |-------------------------------------------------------| |-------------------------------------------------------| |-------------------------------------------------------| |-9-9-9-5-(0)-----------------------------------------| |-9-9-9-5-(0)-----------------------------------------| |-7-7-7-3-(0)-----------------------------------------| Puis : Jouer les notes comme dans la musique (rester plus ou moins longtemps sur chaque note) |-------------------------------------------------------------------| |-------------------------------------------------------------------| |-------------------------------------------------------------------| |-------------------------------------------------------------------| |-------------------------------------------------------------------| |-7-12-10--12-10-3-12-10-------------------------------------|
[Saezien]Quentin Il y a 9 ans

Rochechouart
SAEZ
Miami (2013)

ACCORDS : B / G

Guitare 1 :
Arpège :
B G
|-------------------------------------------------------|
|-------------------------------------------------------|
|-------------------------------------------------------|
|-9-9-9-5-(0)-----------------------------------------|
|-9-9-9-5-(0)-----------------------------------------|
|-7-7-7-3-(0)-----------------------------------------|

Puis :
Jouer les notes comme dans la musique (rester plus ou moins longtemps sur chaque note)
|-------------------------------------------------------------------|
|-------------------------------------------------------------------|
|-------------------------------------------------------------------|
|-------------------------------------------------------------------|
|-------------------------------------------------------------------|
|-7-12-10--12-10-3-12-10-------------------------------------|

Le Roi SAEZ Miami (2013) ACCORDS : Em / G / A Guitare 1 : Em |-------------------------------------------------------| |-------------------------------------------------------| |-------------------------------------------------------| |-0---2------------------------------------------------| |-0---2------------------------------------------------| |-0---0------------------------------------------------| Guitare 2 : (En fond, jouer en étouffant la note) Em |-------------------------------------------------------| |-------------------------------------------------------| |-------------------------------------------------------| |-2-2-2-2-2-------------------------------------------| |--------------------------------------------------------| |--------------------------------------------------------| Puis Guitare 1 : Jouer les notes comme dans la musique (rester plus ou moins longtemps sur chaque note) |------------------------------------------------------------------- |------------------------------------------------------------------- |------------------------------------------------------------------- |-7-7-7--9---7-7-7--9---9-9-9--10----9-9-9-10-------------- |-7-7-7--9---7-7-7--9---9-9-9--10----9-9-9-10-------------- |-5-5-5--7---5-5-5--7---7-7-7--8-----7-7-7-8---------------- -------------------------------------------------------------------| -------------------------------------------------------------------| -------------------------------------------------------------------| -7-7-7--9---7-7-7--9---4-4-4--5-------5---------------------| -7-7-7--9---7-7-7--9---4-4-4--5--7-7---7-5-7--------------| -5-5-5--7---5-5-5--7---2-2-2--3------------------------------| Ensuite Guitare 1 : Em G Em Em |---------------------------------------------------| |---------------------------------------------------| |---------------------------------------------------| |-0-0--2----0--5-2---0-5-0-2-------------------| |-0-0--2----0--5-2---0-5-0-2-------------------| |-0-0--0----0--3-0---0-3-0-0-------------------| Em G Em Em |---------------------------------------------------| |---------------------------------------------------| |---------------------------------------------------| |-0-0--2----0--5-2---0-0-0-2---------------------| |-0-0--2----0--5-2---0-0-0-2---------------------| |-0-0--0----0--3-0---0-0-0-0---------------------| Em G Em A G Em |--------------------------------------------------------| |--------------------------------------------------------| |--------------------------------------------------------| |-0-0--2----0--5-2---0-7-5-2------------------------| |-0-0--2----0--5-2---0-7-5-2------------------------| |-0-0--0----0--3-0---0-5-3-0------------------------| Et la Guitare 2 rejoint la Guitare 1
[Saezien]Quentin Il y a 9 ans

Le Roi
SAEZ
Miami (2013)

ACCORDS : Em / G / A

Guitare 1 :

Em
|-------------------------------------------------------|
|-------------------------------------------------------|
|-------------------------------------------------------|
|-0---2------------------------------------------------|
|-0---2------------------------------------------------|
|-0---0------------------------------------------------|

Guitare 2 :
(En fond, jouer en étouffant la note)
Em
|-------------------------------------------------------|
|-------------------------------------------------------|
|-------------------------------------------------------|
|-2-2-2-2-2-------------------------------------------|
|--------------------------------------------------------|
|--------------------------------------------------------|

Puis Guitare 1 :
Jouer les notes comme dans la musique (rester plus ou moins longtemps sur chaque note)
|-------------------------------------------------------------------
|-------------------------------------------------------------------
|-------------------------------------------------------------------
|-7-7-7--9---7-7-7--9---9-9-9--10----9-9-9-10--------------
|-7-7-7--9---7-7-7--9---9-9-9--10----9-9-9-10--------------
|-5-5-5--7---5-5-5--7---7-7-7--8-----7-7-7-8----------------

-------------------------------------------------------------------|
-------------------------------------------------------------------|
-------------------------------------------------------------------|
-7-7-7--9---7-7-7--9---4-4-4--5-------5---------------------|
-7-7-7--9---7-7-7--9---4-4-4--5--7-7---7-5-7--------------|
-5-5-5--7---5-5-5--7---2-2-2--3------------------------------|








Ensuite Guitare 1 :
Em G Em Em
|---------------------------------------------------|
|---------------------------------------------------|
|---------------------------------------------------|
|-0-0--2----0--5-2---0-5-0-2-------------------|
|-0-0--2----0--5-2---0-5-0-2-------------------|
|-0-0--0----0--3-0---0-3-0-0-------------------|

Em G Em Em
|---------------------------------------------------|
|---------------------------------------------------|
|---------------------------------------------------|
|-0-0--2----0--5-2---0-0-0-2---------------------|
|-0-0--2----0--5-2---0-0-0-2---------------------|
|-0-0--0----0--3-0---0-0-0-0---------------------|


Em G Em A G Em
|--------------------------------------------------------|
|--------------------------------------------------------|
|--------------------------------------------------------|
|-0-0--2----0--5-2---0-7-5-2------------------------|
|-0-0--2----0--5-2---0-7-5-2------------------------|
|-0-0--0----0--3-0---0-5-3-0------------------------|


Et la Guitare 2 rejoint la Guitare 1

Keïko vient de publier les tabs de Pour y voir, Les infidèles, Rochechouart, Le roi, Des drogues, Cadillac noire et Rottweiler sur son site : http://keiko.saezworld.com/
blat Il y a 9 ans

Keïko vient de publier les tabs de Pour y voir, Les infidèles, Rochechouart, Le roi, Des drogues, Cadillac noire et Rottweiler sur son site : http://keiko.saezworld.com/

Et ça serait bien pour les zikos de le remercier de ce qu'il fait pour nous...
broisou Il y a 9 ans

Et ça serait bien pour les zikos de le remercier de ce qu'il fait pour nous...

[quote="broisou"]Et ça serait bien pour les zikos de le remercier de ce qu'il fait pour nous...[/quote] Encore plus que ça ...
flippeur Il y a 9 ans

Et ça serait bien pour les zikos de le remercier de ce qu'il fait pour nous...


Encore plus que ça ...

On m'aura compris...
broisou Il y a 9 ans

On m'aura compris...

Haha t'as lu l'édito toi
[Saezien]Quentin Il y a 9 ans

Haha t'as lu l'édito toi

Oui et j'ai un peu parlé avec lui... Moi le 1er j'ai énormément joué sur ces tabs et moi le 1er je ne l'ai jamais remercier... Et c'est sur ces tab que j'ai appris en partie à gratter et a me mettre de la corne sur les doigts... Donc un petit merci de temps ne fait de mal à personne...
broisou Il y a 9 ans

Oui et j'ai un peu parlé avec lui... Moi le 1er j'ai énormément joué sur ces tabs et moi le 1er je ne l'ai jamais remercier... Et c'est sur ces tab que j'ai appris en partie à gratter et a me mettre de la corne sur les doigts...
Donc un petit merci de temps ne fait de mal à personne...

Fais à chaque fois ^^ via twitter :p pratique avant c'était par mail lol
gwen Il y a 9 ans

Fais à chaque fois via twitter pratique avant c'était par mail lol

[quote="blat"]Keïko vient de publier les tabs de Pour y voir, Les infidèles, Rochechouart, Le roi, Des drogues, Cadillac noire et Rottweiler sur son site : http://keiko.saezworld.com/[/quote] Ça c'est une bonne nouvelle! Merci beaucoup à lui pour tout ce travail!
tortillo Il y a 9 ans

Keïko vient de publier les tabs de Pour y voir, Les infidèles, Rochechouart, Le roi, Des drogues, Cadillac noire et Rottweiler sur son site : http://keiko.saezworld.com/


Ça c'est une bonne nouvelle!

Merci beaucoup à lui pour tout ce travail!